Sevda Çiçeği
Ton
Yazı Büyüklüğü
Tab:
e-----------------------------------------------------
B-----------------------------------------------------
G-----------------------------------------------------
D-----------------------------------------------------
A-7-----7---7-5-4-5-----5---5-4---2---4------4---4--2-
E---0-0---0---------0-0---0------------- 0-0---0------
e-----------------------------------------------------
B-----------------------------------------------------
G-----------------------------------------------------
D-----------------------------------------------------
A---1-2-||-----1-2------2----2--1----1----1---1--------
E---------------0-0------0------3----0-0--0- --3-2-3-3-
D------------------------------------------------------
A-1-2--0-----------------------------------------------
E--------3-2--- Em