Yağmurun Sabahında
Ton
Yazı Büyüklüğü
İntro : --> 1. Tab ( 8 kez )

E|---------------------------------------------------
B|----------------------------------------------------
G|--------2-----------7--------------------------------
D|-----3-----------8------------------------------------       [ 1. Tab ]
A|-------------------------------------------------------
E|--1---------1/6---------------------------------------------

 
Uyandım sensiz
Yağmur sabahında
Yuvamız sessiz
Ayrılık sonrasında


E|---------------------------------------------------
B|-----------------------8-----------------------------
G|--------7-----------8--------------------------------       [ 2. Tab ] 
D|-----8-----------------------------------------------
A|-------------6------------------------------------------
E|-6-------------------------------------------------------

 
Aşkımız son buldu
Yağmur sabahında


 F      Bb           F                                  
ah nerden nereye geldik bu hallere
Eb     Bb            F        
ah geldik gözlere düştük ne halllere
 
E|------------------------------------------------------------------------------
-
B|-----------------------------------------------------------------8/11-11-10-8-
-
G|-------------7-------------------------------7------7/10-10-9-7---------------
-
D|---5/7-8-10-----10--7-7-8-7-6-7------7-8-10----10-----------------------------
-
A|------------------------------------------------------------------------------
-
E|------------------------------------------------------------------------------
-

___________
E|---------------------------------------------------
B|----------------------------------------------------
G|--------2-----------7--------------------------------
D|-----3-----------8------------------------------------       [ 1. Tab ]
A|-------------------------------------------------------
E|--1---------1/6---------------------------------------------


 
yürüdüm yalnız
hüzünlü sokaklarda
savruldum bahtsız
ayrılık rüzgarında

E|---------------------------------------------------
B|-----------------------8-----------------------------
G|--------7-----------8--------------------------------       [ 2. Tab ] 
D|-----8-----------------------------------------------
A|-------------6------------------------------------------
E|-6-------------------------------------------------------


 
 
Aşkımız son buldu
Yağmur sabahında
 F      Bb           F                                  
ah nerden nereye geldik bu hallere
Eb     Bb            F        
ah geldik gözlere düştük ne halllere

 
E|------------------------------------------------------------------------------
-
B|-----------------------------------------------------------------8/11-11-10-8-
-
G|-------------7-------------------------------7------7/10-10-9-7---------------
-
D|---5/7-8-10-----10--7-7-8-7-6-7------7-8-10----10-----------------------------
-
A|------------------------------------------------------------------------------
-
E|------------------------------------------------------------------------------