Vals
Ton
Yazı Büyüklüğü
intro :
 Dm   Bb   Dm Dm E   Dm C Bb   F A Dm

E|--------------------------------------------------------------------------
B|--------------------------------------------------------------------------
G|--------------------------------------------------------------------------
D|---------7-8--------7-7-6---------7/12---15--14--12--11-------------------
A|--5-7-8-------5-7-8--------5-7-8------------------------13--12------------
E|--------------------------------------------------------------------------


Dm         Bb  
kalbimi çaldı
Dm       Dm   E
ortasından yardı
Dm        C 
bir tohum ekti
Bb  F   A  Dm
çok farklı


Ara Solo:
 Dm   Bb  Dm Dm E 

E|--------------------------------------------------------------------------
B|--------------------------------------------------------------------------
G|--------------------------------------------------------------------------
D|---------7-8--------7-7-6-------------------------------------------------
A|--5-7-8-------5-7-8-------------------------------------------------------
E|--------------------------------------------------------------------------

Dm          Bb
gölgeye kaçtım
Dm         Dm   E
bir yudum su içtim
Dm          C
bin çiçek açtı
Bb   Bb      A       Bb      A
yok kimseyi duymadım,canımı sıkmadım
Bb      A        A
fikrini sormadım ben


Am    F      E    Am   F   E
yok benim ayarım yok  ooo  oo
Am    F    E      Am   F   E
kaybolan zamanım yok  ooo  oo
Am    F    E      Am      F   E
gel benim şahidim ol      oooooo
Am          F    E        Am          F   E    F   E   F   E
ayrılmaz bir can hayalim  ol          ooooo    eeeee   aaaaa


Ara Solo : 
Dm   Bb  Dm Dm E  Dm C Bb  F A Dm

E|--------------------------------------------------------------------------
B|--------------------------------------------------------------------------
G|--------------------------------------------------------------------------
D|---------7-8--------7-7-6---------7/12---15--14--12--11-------------------
A|--5-7-8-------5-7-8--------5-7-8------------------------13--12------------
E|--------------------------------------------------------------------------

Dm       Bb
aklımı çeldi
Dm        Dm   E
ortasından deldi 
Dm         C
bir ışık yaktı
Bb  F A Dm
çok renkli

   Ara Solo:
  Dm   Bb  Dm Dm E 
   
E|--------------------------------------------------------------------------
B|-------------------------------------------------5------------------------
G|---------------------------------------------6-7---7-6--------------------
D|---------5-7-8--7-5--------------------5-7-8-----------8-7----------------
A|--5-7-8--------------8-7-5-4-----5-7-8------------------------------------
E|--------------------------------------------------------------------------


Dm        Bb
gölgeye kaçtım
Dm          Dm  E  
bir kıvılcım çaktım
Dm           C
bin güneş açtı
Bb   Bb      A       Bb      A
yok kimseyi duymadım,canımı sıkmadım
Bb      A        A
fikrini sormadım ben



Am    F      E    Am   F   E
yok benim ayarım yok  ooo  oo
Am    F    E      Am   F   E
kaybolan zamanım yok  ooo  oo
Am    F    E      Am      F   E
gel benim şahidim ol      oooooo
Am          F    E        Am          F   E    F   E   F   E
ayrılmaz bir can hayalim  ol          ooooo    eeeee   aaaaa

Bitiş:

E|----------------------------------
B|----------------------------------
G|----------------------------------
D|---------7-8--------7-7-6---------
A|--5-7-8-------5-7-8--------5------