Sadece Koklayacaktım
Ton
Yazı Büyüklüğü
F#m
ben ademin torunuyum
hem deliyim hem doluyum
yasak ormandan yem kaptım
A             F#m
tadına bakmayacaktım
A              F#m
SADECE KOKLAYACAKTIM

E||--------------------||
B||--------------------||
G||--------------------||
D||--5-5-5-5-5-5-5-5-4-||
A||--------------------||
E||--------------------||

F#m
gel bir turku soyleyelim
hep beraber oynayalım
anlamazsan neyleyelim
A              F#m
buraya gelmeyecektin
A              F#m
SADECE KOKLAYACAKTIN


E||--------------------||
B||--------------------||
G||--------------------||
D||--5-5-5-5-5-5-5-5-4-||
A||--------------------||
E||--------------------||

F#m
bir acayip yarıstasın
hem öndesin hem rahatsın
o zaman ne için ağlarsın
A           F#m
ödülü almayacaktım
A              F#m
SADECE KOKLAYACAKTIM

A           F#m
tadına bakmayacaktım
A           F#m
SADECE KOKLAYACAKTIM

solo
     A           F#m                                             A         F#m
E||--14--12-------------------------|-------------------------|--14--12------17-
-14------16--12--|------14------12b-------12--12b-|
B||----------14--14--11---------14--|--14--11--12--11---------|----------14-----
-----14----------|--12------14--------14----------|
G||----------------------11--9------|------------------11--9--|-----------------
-----------------|--------------------------------|
D||---------------------------------|-------------------------|-----------------
-----------------|--------------------------------|
A||---------------------------------|-------------------------|-----------------
-----------------|--------------------------------|
E||---------------------------------|-------------------------|-----------------
-----------------|--------------------------------|


  A              F#m                                            A          F#m  
                     
--14--12------14/-17--17--17--14--12-14--12--14--12----------|--14--12----------
--------------||
----------14-----------------------------------------14--12--|----------14------
--------------||
-------------------------------------------------------------|------------------
---9------11~-||
-------------------------------------------------------------|--------------9--1
1-----11------||
-------------------------------------------------------------|------------------
--------------||
-------------------------------------------------------------|------------------
--------------||



F#m
deli gönlüm kaynayınca
bir çiçek aldım koynuma
tepelerden düştüm takla
A          F#m
aşık olmayacaktım
A              F#m
SADECE KOKLAYACAKTIM

E||--------------------||
B||--------------------||
G||--------------------||
D||--5-5-5-5-5-5-5-5-4-||
A||--------------------||
E||--------------------||

F#m
sevenin gönlü DUMANdır
hem karanlık hem sıcaktır
böyle sevda akla ziyandır
A                  F#m
içine cekmeyecektin
A                   F#m
SADECE KOKLAYACAKTIN

A           F#m
tadına bakmayacaktım
A           F#m
SADECE KOKLAYACAKTIM