Takıl Yani Takmıyo Belli
Ton
Yazı Büyüklüğü
Intro  Bm - G6
 
Bm      G6  Bm       G6
Olur olmaz geriye dönenler 
Bm           G6  Bm            G6
Deliye dönenler kadar rahat uyumazlar 
 
Bm        G6  Bm       G6
Bu kez böyle hoşuna gidenler 
Bm           G6  Bm            G6
Başına gelenler kadar senin olamazlar
 
Bm - G6 x3
 
                2 kere
  [--------------------------]
E||--------------------------|-------------------------||
B||--------------------------|-------------------------||
G||--9-9-9---9-7-9S-12-------|-------------------------||
D||---------------------9----|--7-7-7---7-5-7S-9-------||
A||--------------------------|--------------------7----||
E||--------------------------|-------------------------||
 
Intro
 
Bm      G6  Bm       G6
Olur olmaz geriye dönenler 
Bm           G6  Bm            G6
Deliye dönenler kadar rahat uyumazlar 
 
Bm      G6  Bm       G6
Bu kez böyle hoşuna gidenler 
Bm           G6  Bm            G6
Başına gelenler kadar bizim olamazlar 
 
Bm - G6 x3
 
                2 kere
  [--------------------------]
E||--------------------------|-------------------------||
B||--------------------------|-------------------------||
G||--9-9-9---9-7-9S-12-------|-------------------------||
D||---------------------9----|--7-7-7---7-5-7S-9-------||
A||--------------------------|--------------------7----||
E||--------------------------|-------------------------||
 
Intro
 
Bm        G6  Bm       G6
Ben sen o biz siz ve onlar 
Bm  G6  Bm  G6  
Eee eee